SoulSpeach     |   home
                                                  
Wish you were here
This is the main guitar riff played during the intro and chorus.
The intro is played at low volume with distortion and then after
it's played twice kick in full volume and probably octaver

E|---------------------------------------------------------|
B|---------------------------------------------------------|
G|------4-----4-------------2---------------------------|
D|------2----2---- 4-------2------2--------------------|
A|------0----2-----4-------0------2--------------------|
E|-------0-----0------2--------------0--------------------|

Here's the lead riff played during the verses (played with delay)
E|---------------------------------------------------------------------------------------12-----|
B|------------------------------------------------------------------------------------10--------|
         G|---9-11-11-9-11-9-------------------------------------11-9----------------|
     D|--------------------------------------10-------9-11-9------------|
A|---------------------------------------------------------|
E|---------------------------------------------------------|

E|---------------------------------------------------------|
B|---------------------------------------------------------|
G|---9-11-11-9-11-9------------------------9-9-11----------|
D|----------------------10--------9-11-9-11----------------|
A|---------------------------------------------------------|
E|---------------------------------------------------------|